Группа Rammstein - главная
Rammstein  навигация
Rammstein
     Новости
     О группе
     Дискография, mp3
     Чтиво
     Концерты
     Скачать клипы
     Фотографии
     Wallpapers

     Магазин
     Рассылка
     Разное
     Фанатам
     Ссылки
 
Rammstein - реклама
Rammstein
QLE.RU/100x100

Alter Mann

Riff 1
|-----------------------------------------------------------------------
|-----------------------------------------------------------------------
|-----------------------------------------------------------------------
|--2--2--2--2--2--2--2--2--2--2--2--2--2--2--2--2--2--2--2--2--0--1-----

Verse Chorus
---|--------|-----------------------------------------------------------
---|--------|-----------------------------------------------------------
---|--------|--3--3--3--3--3--3--3--3--3--3--3--3--3--3--3--3--3--2-----
3--|--14\2--|-----------------------------------------------------------


------------------------------------------------------------------------
------------------------------------------------------------------------
2--2--2--2--2--2--2--2--2--2--2--2--2--2--2--2--3--3--3--3--3--3--3-----
------------------------------------------------------------------------


------------------------------------------------------------------------
------------------------------------------------------------------------
3--3--------------------------2--2--2--2--2--2--2--2--2--2--2--2--2-----
------2--2--2--2--2--2--2--2--------------------------------------------

End Riff
------------|--------------------------|--------------------------------
------------|--------------------------|--------------------------------
2--2--2--2--|--------------------------|--------------------------------
------------|--0--------7--8--7--5--2--|--------------------------------

Riff 1 is the intro riff. During the verse slide from the 14th fret to
2 a few times
before going into the chorus. Play end riff at the end.


== TABLATURE EXPLANATION ==


---------- ---------- ----t---
----5h8--- Hammeron ----(8)--- Ghost ----6--- Tap
---------- ---------- Note --------
----5p8--- Pulloff ---------- --------

---------- ---------- -----p--
----5/8--- Slide Up -----x---- Dead -----7-- Pop
---------- ---------- Note --s-----
----5\8--- Slide Down ---------- --5----- Slap

---------- ||------|| Repeat --------
----5~~~-- Vibrato ||*----*|| ---5^--- Bend
---------- ||*----*|| --------
---------- ||------|| --------

---------- ---------- --------
-4:------- Time ---------- --------
-4:------- Signature ---------- --------
---------- ---------- --------

Rhythm:
w = whole note W = dotted whole
h = half note H = dotted half
q = quarter note Q = dotted quarter
e = eighth note E = dotted eighth
s = sixteenth note S = dotted sixteenth
t = 32nd note T = dotted 32nd
x = 64th note X = dotted 64th
^ = triplet

 

Заказать музыку Rammstein на аудио-дисках и mp3 вы можете в нашем Магазине

 
Rammstein - информация
Rammstein
 
Репутация в интернете от Dreamtag
    Сайт группы Rammstein 2003-2013
Рейтинг@Mail.ru