Группа Rammstein - главная
Rammstein  навигация
Rammstein
     Новости
     О группе
     Дискография, mp3
     Чтиво
     Концерты
     Скачать клипы
     Фотографии
     Wallpapers

     Магазин
     Рассылка
     Разное
     Фанатам
     Ссылки
 
Rammstein - реклама
Rammstein
QLE.RU/100x100

Asche Zu Asche

Main Riff Interlude
G---|--------------------------------------------------|--12------------
D---|--------------------------------------------------|----------------
A---|--------------------------------------------------|----------------
E---|-----3--0--0--0--5--0--0--0--6--0--0--5--3--0--0--|------0--0------


G-------14------------15---------14-----12--------12------------14------
D---14------------14---------14-----------------------------14----------
A-----------------------------------------------------------------------
E-----------0--0----------0----------0------0--0------0--0--------------


G----------15---------14-----12--------|--------------------------------
D------14---------14-------------------|--------------------------------
A--------------------------------------|--------------------------------
E---0----------0----------0------0--0--|--------------------------------

This song is pretty straight forward. Play the main riff throughout
the entire song. Twords the end play the interlude.

== TABLATURE EXPLANATION ==


---------- ---------- ----t---
----5h8--- Hammeron ----(8)--- Ghost ----6--- Tap
---------- ---------- Note --------
----5p8--- Pulloff ---------- --------

---------- ---------- -----p--
----5/8--- Slide Up -----x---- Dead -----7-- Pop
---------- ---------- Note --s-----
----5\8--- Slide Down ---------- --5----- Slap

---------- ||------|| Repeat --------
----5~~~-- Vibrato ||*----*|| ---5^--- Bend
---------- ||*----*|| --------
---------- ||------|| --------

---------- ---------- --------
-4:------- Time ---------- --------
-4:------- Signature ---------- --------
---------- ---------- --------

Rhythm:
w = whole note W = dotted whole
h = half note H = dotted half
q = quarter note Q = dotted quarter
e = eighth note E = dotted eighth
s = sixteenth note S = dotted sixteenth
t = 32nd note T = dotted 32nd
x = 64th note X = dotted 64th
^ = triplet

 

Заказать музыку Rammstein на аудио-дисках и mp3 вы можете в нашем Магазине

 
Rammstein - информация
Rammstein
 
    Сайт группы Rammstein 2003-2013
Рейтинг@Mail.ru