Группа Rammstein - главная
Rammstein  навигация
Rammstein
     Новости
     О группе
     Дискография, mp3
     Чтиво
     Концерты
     Скачать клипы
     Фотографии
     Wallpapers

     Магазин
     Рассылка
     Разное
     Фанатам
     Ссылки
 
Rammstein - реклама
Rammstein
QLE.RU/100x100

Das Alte Leid

* = Palm Note it is over or under


Riff 1 * Riff 2 * * * *
E---|-----------------------------------|--------------------------|----
B---|-----------------------------------|--------------------------|----
G---|-----------------------------------|--------------------------|----
D---|--------------------------/--7--2--|--------------------------|----
A---|--2--4--2--4--2--4--2--4--/--7--2--|--2--2--------2--2--2--2--|----
E---|--0--2--0--2--0--2--0--2--/--5--0--|--0--0--------0--0--0--0--|----
* *

Fill 1 Fill 2 Fill 3
E-------|-----------|-----------|---------------------------------------
B-------|-----------|-----------|---------------------------------------
G-------|-----------|-----------|---------------------------------------
D---5^--|--------2--|--2--------|---------------------------------------
A-------|--2--2--2--|--2--------|---------------------------------------
E-------|--0--0--0--|--0--------|---------------------------------------
* *

Song Progression:
Hello Hello
Drum Intro
Riff 1 x7
Verse 1 (Riff 2 x5
Fill 1
Riff 2 x5)
Riff 1 x 4
Verse 2 (Riff 2x 5
Fill 1
Riff 2 x5
Fill 2)
Drums
Ich will Ficken!
Riff 1 x19
Riff 2 x4
Fill 3
Verse 3 (Fill 3 at the very end)
Riff 1 x24
End with Fill 1
use delay.

== TABLATURE EXPLANATION ==


---------- ---------- ----t---
----5h8--- Hammeron ----(8)--- Ghost ----6--- Tap
---------- ---------- Note --------
----5p8--- Pulloff ---------- --------

---------- ---------- -----p--
----5/8--- Slide Up -----x---- Dead -----7-- Pop
---------- ---------- Note --s-----
----5\8--- Slide Down ---------- --5----- Slap

---------- ||------|| Repeat --------
----5~~~-- Vibrato ||*----*|| ---5^--- Bend
---------- ||*----*|| --------
---------- ||------|| --------

---------- ---------- --------
-4:------- Time ---------- --------
-4:------- Signature ---------- --------
---------- ---------- --------

Rhythm:
w = whole note W = dotted whole
h = half note H = dotted half
q = quarter note Q = dotted quarter
e = eighth note E = dotted eighth
s = sixteenth note S = dotted sixteenth
t = 32nd note T = dotted 32nd
x = 64th note X = dotted 64th
^ = triplet

 

Заказать музыку Rammstein на аудио-дисках и mp3 вы можете в нашем Магазине

 
Rammstein - информация
Rammstein
 
    Сайт группы Rammstein 2003-2013
Рейтинг@Mail.ru