Группа Rammstein - главная
Rammstein  навигация
Rammstein
     Новости
     О группе
     Дискография, mp3
     Чтиво
     Концерты
     Скачать клипы
     Фотографии
     Wallpapers

     Магазин
     Рассылка
     Разное
     Фанатам
     Ссылки
 
Rammstein - реклама
Rammstein
QLE.RU/100x100

Der Meister

Riff 1 Riff 2
G---|--------------------------------------------------|----------------
D---|--------------------------------------------------|----------------
A---|--7-----5-----7-----5-----7-----5-----7-----5--8--|--5-----3-------
D---|-----0-----0-----0-----0-----0-----0-----0--------|-----0-----0----


G---------------------------------------|-------------------------------
D---------------------------------------|-------------------------------
A---5-----3-----5-----3-----5-----3--6--|-------------------------------
D------0-----0-----0-----0-----0--------|-------------------------------

These riffs are played throughout the entire song. They change with
the guitars.


== TABLATURE EXPLANATION ==


---------- ---------- ----t---
----5h8--- Hammeron ----(8)--- Ghost ----6--- Tap
---------- ---------- Note --------
----5p8--- Pulloff ---------- --------

---------- ---------- -----p--
----5/8--- Slide Up -----x---- Dead -----7-- Pop
---------- ---------- Note --s-----
----5\8--- Slide Down ---------- --5----- Slap

---------- ||------|| Repeat --------
----5~~~-- Vibrato ||*----*|| ---5^--- Bend
---------- ||*----*|| --------
---------- ||------|| --------

---------- ---------- --------
-4:------- Time ---------- --------
-4:------- Signature ---------- --------
---------- ---------- --------

Rhythm:
w = whole note W = dotted whole
h = half note H = dotted half
q = quarter note Q = dotted quarter
e = eighth note E = dotted eighth
s = sixteenth note S = dotted sixteenth
t = 32nd note T = dotted 32nd
x = 64th note X = dotted 64th
^ = triplet

 

 

Заказать музыку Rammstein на аудио-дисках и mp3 вы можете в нашем Магазине

 
Rammstein - информация
Rammstein
 
Остеклить дачу, установка пластиковых окон Рехау от 1040 руб/кв.м, остекление.
    Сайт группы Rammstein 2003-2013
Рейтинг@Mail.ru