Группа Rammstein - главная
Rammstein  навигация
Rammstein
     Новости
     О группе
     Дискография, mp3
     Чтиво
     Концерты
     Скачать клипы
     Фотографии
     Wallpapers

     Магазин
     Рассылка
     Разное
     Фанатам
     Ссылки
 
Rammstein - реклама
Rammstein
QLE.RU/100x100

Du Hast

Palm Mute all Diads


Riff 1 3x
E---||-------------------------------------------------------||--|------
B---||-------------------------------------------------------||--|------
G---||*-----------------------------------------------------*||--|------
D---||*--7--\--5--------------------7--5--------------------*||--|------
A---||---7--\--5--2--2--2--2--2--2--7--5--2--2--2--2--2--2---||--|------
E---||---5--\--3--0--0--0--0--0--0--5--3--0--0--0--0--0--0---||--|------

Riff 2
E------------------------------|-----||---------------------------------
B------------------------------|-----||---------------------------------
G------------------------------|-----||*--------------------------------
D---5--/--7--------------------|-----||*--7--\--5-----------------------
A---5--/--7--7--7--7--7--7--7--|-----||---7--\--5--2--2--2--2--2--2-----
E---3--/--5--5--5--5--5--5--5--|-----||---5--\--3--0--0--0--0--0--0-----

2x 2x
E----------------------------||--||-------------------------------||----
B----------------------------||--||-------------------------------||----
G---------------------------*||--||*-----------------------------*||----
D---7--5--------------------*||--||*--5--/--7--------------------*||----
A---7--5--2--2--2--2--2--2---||--||---5--/--7--7--7--7--7--7--7---||----
E---5--3--0--0--0--0--0--0---||--||---3--/--5--5--5--5--5--5--5---||----


E-------------------------------------|---------------------------|-----
B-------------------------------------|---------------------------|-----
G-------------------------------------|---------------------------|-----
D---7--/--10--------------------------|--10--9--------------------|-----
A---7--/--10--10--10--10--10--10--10--|--10--9--9--9--9--9--9--9--|-----
E---5--/--8---8---8---8---8---8---8---|--8---7--7--7--7--7--7--7--|-----

2x
E---||-------------------------------------------------------||---------
B---||-------------------------------------------------------||---------
G---||*-----------------------------------------------------*||---------
D---||*--7--\--5--------------------7--5--------------------*||---------
A---||---7--\--5--2--2--2--2--2--2--7--5--2--2--2--2--2--2---||---------
E---||---5--\--3--0--0--0--0--0--0--5--3--0--0--0--0--0--0---||---------

Song Progression:
Keyboard intro
Riff 1
Verse 1:
Riff 1
Verse 2:
Chorus:
(Riff 2 x3)
Verse 3:
(Play Riff near the end of the third verse)
Chorus:
(Riff 2 x4)


== TABLATURE EXPLANATION ==


---------- ---------- ----t---
----5h8--- Hammeron ----(8)--- Ghost ----6--- Tap
---------- ---------- Note --------
----5p8--- Pulloff ---------- --------

---------- ---------- -----p--
----5/8--- Slide Up -----x---- Dead -----7-- Pop
---------- ---------- Note --s-----
----5\8--- Slide Down ---------- --5----- Slap

---------- ||------|| Repeat --------
----5~~~-- Vibrato ||*----*|| ---5^--- Bend
---------- ||*----*|| --------
---------- ||------|| --------

---------- ---------- --------
-4:------- Time ---------- --------
-4:------- Signature ---------- --------
---------- ---------- --------

Rhythm:
w = whole note W = dotted whole
h = half note H = dotted half
q = quarter note Q = dotted quarter
e = eighth note E = dotted eighth

s = sixteenth note S = dotted sixteenth
t = 32nd note T = dotted 32nd
x = 64th note X = dotted 64th
^ = triplet


 

 

Заказать музыку Rammstein на аудио-дисках и mp3 вы можете в нашем Магазине

 
Rammstein - информация
Rammstein
 
по специальным расценкам игры настольные
    Сайт группы Rammstein 2003-2013
Рейтинг@Mail.ru