Группа Rammstein - главная
Rammstein  навигация
Rammstein
     Новости
     О группе
     Дискография, mp3
     Чтиво
     Концерты
     Скачать клипы
     Фотографии
     Wallpapers

     Магазин
     Рассылка
     Разное
     Фанатам
     Ссылки
 
Rammstein - реклама
Rammstein
QLE.RU/100x100

Seemann

Main Riff Tremolo pick all chords
E---|-------------------------------------------------------------------
B---|-------------------------------------------------------------------
G---|-------------------------------------------------------------------
D---|--2----------------------------------------------------------------
A---|--0--2--0--2-------------------------------------------------------
D---|-----2--0--2-------------------------------------------------------

Fill 1 Acoustic part doubled by bass
E---------------|--------------|----------------------------------------
B---------------|--------------|----------------------------------------
G---------------|--2-----------|----------------------------------------
D---------------|--2--------2--|--------11-----------9-----------7------
A---------------|--0--x--x--2--|-----0------0-----0-----0-----0---------
D---------------|-----x--x--2--|--0------------0-----------0------------


E-----------------------------------------------------------------------
B-----------------------------------------------------------------------
G-----------------------------------------------------------------------
D------------6-----------2-----------2-----------4-----------4----------
A---0-----0-----0-----2-----2-----2-----2-----2-----2-----2-----2-------
D------0-----------2-----------2-----------2-----------2-----------7----


E------------------------------------------------|----------------------
B------------------------------------------------|----------------------
G------------------------------------------------|----------------------
D------7-----------6-----------4-----------2-----|--------0-------------
A---7-----7-----7-----7-----7-----7-----5-----5--|-----2-----2-----2----
D------------7-----------7-----------7-----------|--2-----------2-------


E------------------------|----------------------------------------------
B------------------------|----------------------------------------------
G------------------------|----------------------------------------------
D---2-----------4--------|----------------------------------------------
A------2-----2-----2-----|----------------------------------------------
D---------2-----------2--|----------------------------------------------


Song Progression:
Studio effects intro
Verse 1: Acous. part x4
Main Riff
Verse 2: Acous. x2
Main Riff
Chorus: Main Riff x5
Fill 1
Verse 3: Acous. x2
Chorus: Main Riff x4
Fill 1
Play the acoustic part but start to slow down at the bar line.


== TABLATURE EXPLANATION ==


---------- ---------- ----t---
----5h8--- Hammeron ----(8)--- Ghost ----6--- Tap
---------- ---------- Note --------
----5p8--- Pulloff ---------- --------

---------- ---------- -----p--
----5/8--- Slide Up -----x---- Dead -----7-- Pop
---------- ---------- Note --s-----
----5\8--- Slide Down ---------- --5----- Slap

---------- ||------|| Repeat --------
----5~~~-- Vibrato ||*----*|| ---5^--- Bend
---------- ||*----*|| --------
---------- ||------|| --------

---------- ---------- --------
-4:------- Time ---------- --------
-4:------- Signature ---------- --------
---------- ---------- --------

Rhythm:
w = whole note W = dotted whole
h = half note H = dotted half
q = quarter note Q = dotted quarter
e = eighth note E = dotted eighth
s = sixteenth note S = dotted sixteenth
t = 32nd note T = dotted 32nd
x = 64th note X = dotted 64th
^ = triplet

 

 

Заказать музыку Rammstein на аудио-дисках и mp3 вы можете в нашем Магазине

 
Rammstein - информация
Rammstein
 
занятия по английскому языку в солнцево
    Сайт группы Rammstein 2003-2013
Рейтинг@Mail.ru