Группа Rammstein - главная
Rammstein  навигация
Rammstein
     Новости
     О группе
     Дискография, mp3
     Чтиво
     Концерты
     Скачать клипы
     Фотографии
     Wallpapers

     Магазин
     Рассылка
     Разное
     Фанатам
     Ссылки
 
Rammstein - реклама
Rammstein
QLE.RU/100x100

Spiel Mit Mir

Riff (1 PM E A strings)
E---|-------------------------------------------------------------------
B---|-------------------------------------------------------------------
G---|-----------4-------------------------------------------------------
D---|-----------2-------------------------------------------------------
A---|--2--2--2-----2--2--2-----2--2--2-----3-----3-----3--------3-------
E---|--0--0--0-----0--0--0-----0--0--0-----1-----1-----1--------1-------

Riff 2 (PM A Bb G chords)
E------------------------|-----|----------------------------------------
B------------------------|-----|----------------------------------------
G------------------------|-----|-----------2----------------------------
D------------------------|-----|--2--2--2--2--2--2--2-----2--2--2-------
A---3-----4--4-----4--4--|-----|--0--0--0-----0--0--0-----0--0--0-------
E---1-----2--2-----2--2--|-----|----------------------------------------


E-----------------------------------------------------------------------
B-----------------------------------------------------------------------
G------------------------------------------2----------------------------
D---2--2--3-----3--3--------------2--2--2--2--2--2--2-----2--2--2-------
A---0--0--1-----1--1--5-----5--5--0--0--0-----0--0--0-----0--0--0-------
E---------------------3-----3--3----------------------------------------

Riff 3
E---------------------|-------------------------------------------------
B---------------------|-------------------------------------------------
G---------------------|-------------------------------------------------
D---2--2--3-----3--3--|--4--4--4-----------------------------2--2--2----
A---0--0--1-----1--1--|--2--2--2-----2--2--2-----2--2--2-----0--0--0----
E---------------------|--------------0--0--0-----0--0--0----------------

Riff 4
E------------------------------------|----------------------------------
B------------------------------------|----------------------------------
G------------------------------------|----------------------------------
D------2--2--------------------------|--4--4--4-------------------------
A------0--0--3-----3--3--2-----2--2--|--2--2--2-----2--2--2-----2--2----
E------------1-----1--1--0-----0--0--|--------------0--0--0-----0--0----

Riff 5
E------------------------------|--------|-------------------------------
B------------------------------|--------|-------------------------------
G------------------------------|--3-----|-------------------------------
D---------2--2--2-----2--2--3--|--3--5--|-------------------------------
A---2-----0--0--0-----0--0--3--|--1--5--|-------------------------------
E---0-----------------------1--|-----3--|-------------------------------

Solo Play this a few times end on this
E------------------------------------------------------|----------|-----
B------12--0--12--0-----12--0--12--0-----12--0--12--0--|--12^~~~--|-----
G------------------------------------------------------|----------|-----
D------------------------------------------------------|----------|-----
A------------------------------------------------------|----------|-----
E------------------------------------------------------|----------|-----

Riff 6
E---------------------------------------------------------|-------------
B---------------------------------------------------------|-------------
G------------2--------------------------------------------|-------------
D---2--2--2--2--2--2--2-----2--2--2-----2--2--3-----3--3--|-------------
A---0--0--0-----0--0--0-----0--0--0-----0--0--1-----1--1--|-------------
E---------------------------------------------------------|-------------

Song Progression:
Synthesizer Intro
Verse 1
Verse 2: Riff 1 x4
Riff 2
Verse 3: Riff 1 x4
Bridge: Riff 2
Chorus: Riff 3 x3
Riff 4
Pause
Solo
Verse 4: Riff 1 x4
Bridge: Riff 5
Riff 6
Chorus: Riff 3 x3
Riff 4
Riff 3 x4
Riff 4

== TABLATURE EXPLANATION ==


---------- ---------- ----t---
----5h8--- Hammeron ----(8)--- Ghost ----6--- Tap
---------- ---------- Note --------
----5p8--- Pulloff ---------- --------

---------- ---------- -----p--
----5/8--- Slide Up -----x---- Dead -----7-- Pop
---------- ---------- Note --s-----
----5\8--- Slide Down ---------- --5----- Slap

---------- ||------|| Repeat --------
----5~~~-- Vibrato ||*----*|| ---5^--- Bend
---------- ||*----*|| --------
---------- ||------|| --------

---------- ---------- --------
-4:------- Time ---------- --------
-4:------- Signature ---------- --------
---------- ---------- --------

Rhythm:
w = whole note W = dotted whole
h = half note H = dotted half
q = quarter note Q = dotted quarter
e = eighth note E = dotted eighth
s = sixteenth note S = dotted sixteenth
t = 32nd note T = dotted 32nd
x = 64th note X = dotted 64th
^ = triplet

 

 

Заказать музыку Rammstein на аудио-дисках и mp3 вы можете в нашем Магазине

 
Rammstein - информация
Rammstein
 
Комфортного отдыха постельное белье должно быть хорошего качества.
    Сайт группы Rammstein 2003-2013
Рейтинг@Mail.ru