Группа Rammstein - главная
Rammstein  навигация
Rammstein
     Новости
     О группе
     Дискография, mp3
     Чтиво
     Концерты
     Скачать клипы
     Фотографии
     Wallpapers

     Магазин
     Рассылка
     Разное
     Фанатам
     Ссылки
 
Rammstein - реклама
Rammstein
QLE.RU/100x100

Spiel Mit Mir

Intro Verse
G---|--9-----------------|----------------------------------------------
D---|--9-----------------|----------------------------------------------
A---|--7-----------------|----------------------------------------------
E---|--0-----------------|--0--0--0--------0--0--0-----0--0--0-----1----

Bridge
G------------------------------------|----------------------------------
D------------------------------------|----------------------------------
A------------------------------------|--0--0--0--------0--0--0-----0----
E---1--1-----1--1-----2--2-----2--2--|----------------------------------

Chorus
G---------------------------------|-------------------------------------
D---------------------------------|-------------------------------------
A---0--0-----1-----1--1-----------|--2--2--2----------------------------
E------------------------3--3--3--|-----------0--0--0-----0--0--0-------


G---------------------------------------------|-------------------------
D---------------------------------------------|-------------------------
A---0--0--0-----0--0--------------------------|-------------------------
E---------------------1-----1--1--0-----0--0--|-------------------------


Play the intro chord a few times before launching into the verse.
On this song the bass follows the guitar very closely. Also in the
song these riffs are sometimes shortened or extended.


== TABLATURE EXPLANATION ==


---------- ---------- ----t---
----5h8--- Hammeron ----(8)--- Ghost ----6--- Tap
---------- ---------- Note --------
----5p8--- Pulloff ---------- --------

---------- ---------- -----p--
----5/8--- Slide Up -----x---- Dead -----7-- Pop
---------- ---------- Note --s-----
----5\8--- Slide Down ---------- --5----- Slap

---------- ||------|| Repeat --------
----5~~~-- Vibrato ||*----*|| ---5^--- Bend
---------- ||*----*|| --------
---------- ||------|| --------

---------- ---------- --------
-4:------- Time ---------- --------
-4:------- Signature ---------- --------
---------- ---------- --------

Rhythm:
w = whole note W = dotted whole
h = half note H = dotted half
q = quarter note Q = dotted quarter
e = eighth note E = dotted eighth
s = sixteenth note S = dotted sixteenth
t = 32nd note T = dotted 32nd
x = 64th note X = dotted 64th
^ = triplet

 

 

Заказать музыку Rammstein на аудио-дисках и mp3 вы можете в нашем Магазине

 
Rammstein - информация
Rammstein
 
Оформление перепланировки хрущевки в Москве
    Сайт группы Rammstein 2003-2013
Рейтинг@Mail.ru